ISO-10303-21;
HEADER;
FILE_DESCRIPTION (( 'STEP AP203' ),
    '1' );
FILE_NAME ('Q-DWWP-R41-12.7-1064-SH-M.STEP',
    '2020-12-22T08:54:02',
    ( '' ),
    ( '' ),
    'SwSTEP 2.0',
    'SolidWorks 2020',
    '' );
FILE_SCHEMA (( 'CONFIG_CONTROL_DESIGN' ));
ENDSEC;

DATA;
#1 = CIRCLE ( 'NONE', #169, 3.000000000000000000 ) ;
#2 = CARTESIAN_POINT ( 'NONE',  ( 0.5000000000000004441, 0.000000000000000000, 0.000000000000000000 ) ) ;
#3 = DIRECTION ( 'NONE',  ( -0.000000000000000000, 0.000000000000000000, 1.000000000000000000 ) ) ;
#4 = DATE_AND_TIME ( #199, #143 ) ;
#5 = LOCAL_TIME ( 16, 54, 2.000000000000000000, #32 ) ;
#6 = DATE_AND_TIME ( #221, #225 ) ;
#7 = DIRECTION ( 'NONE',  ( -1.000000000000000000, -0.000000000000000000, -0.000000000000000000 ) ) ;
#8 = DIRECTION ( 'NONE',  ( -1.000000000000000000, 0.000000000000000000, -0.000000000000000000 ) ) ;
#9 = DIRECTION ( 'NONE',  ( -1.000000000000000000, -0.000000000000000000, -0.000000000000000000 ) ) ;
#10 = ADVANCED_FACE ( 'NONE', ( #307 ), #178, .F. ) ;
#11 = CARTESIAN_POINT ( 'NONE',  ( -1.500000000000000000, 6.123233995736766282E-16, -5.000000000000000000 ) ) ;
#12 = LINE ( 'NONE', #278, #218 ) ;
#13 = AXIS2_PLACEMENT_3D ( 'NONE', #322, #163, #29 ) ;
#14 = CIRCLE ( 'NONE', #98, 5.000000000000000000 ) ;
#15 = ORIENTED_EDGE ( 'NONE', *, *, #151, .T. ) ;
#16 = CYLINDRICAL_SURFACE ( 'NONE', #190, 3.000000000000000000 ) ;
#17 = VERTEX_POINT ( 'NONE', #264 ) ;
#18 = DATE_AND_TIME ( #258, #254 ) ;
#19 = EDGE_CURVE ( 'NONE', #148, #236, #14, .T. ) ;
#20 = ORIENTED_EDGE ( 'NONE', *, *, #28, .F. ) ;
#21 = EDGE_LOOP ( 'NONE', ( #235, #51 ) ) ;
#22 = ORIENTED_EDGE ( 'NONE', *, *, #19, .F. ) ;
#23 = CARTESIAN_POINT ( 'NONE',  ( -1.500000000000000000, 0.000000000000000000, 0.000000000000000000 ) ) ;
#24 = ORIENTED_EDGE ( 'NONE', *, *, #120, .T. ) ;
#25 = CIRCLE ( 'NONE', #224, 5.000000000000000000 ) ;
#26 = AXIS2_PLACEMENT_3D ( 'NONE', #326, #68, #37 ) ;
#27 = FACE_OUTER_BOUND ( 'NONE', #328, .T. ) ;
#28 = EDGE_CURVE ( 'NONE', #183, #228, #142, .T. ) ;
#29 = DIRECTION ( 'NONE',  ( 0.000000000000000000, 0.000000000000000000, 1.000000000000000000 ) ) ;
#30 = DATE_AND_TIME ( #245, #259 ) ;
#31 = DIRECTION ( 'NONE',  ( 1.000000000000000000, 0.000000000000000000, 0.000000000000000000 ) ) ;
#32 = COORDINATED_UNIVERSAL_TIME_OFFSET ( 8, 0, .AHEAD. ) ;
#33 = DESIGN_CONTEXT ( 'detailed design', #166, 'design' ) ;
#34 = CYLINDRICAL_SURFACE ( 'NONE', #273, 3.000000000000000000 ) ;
#35 = EDGE_CURVE ( 'NONE', #236, #232, #101, .T. ) ;
#36 = PERSON_AND_ORGANIZATION ( #106, #92 ) ;
#37 = DIRECTION ( 'NONE',  ( 0.000000000000000000, 0.000000000000000000, 1.000000000000000000 ) ) ;
#38 = CC_DESIGN_PERSON_AND_ORGANIZATION_ASSIGNMENT ( #277, #113, ( #110 ) ) ;
#39 = DATE_TIME_ROLE ( 'creation_date' ) ;
#40 = PERSON_AND_ORGANIZATION_ROLE ( 'design_owner' ) ;
#41 = ORIENTED_EDGE ( 'NONE', *, *, #238, .T. ) ;
#42 = CLOSED_SHELL ( 'NONE', ( #129, #95, #305, #86, #158, #180, #275, #69, #118, #10 ) ) ;
#43 = DIRECTION ( 'NONE',  ( -1.000000000000000000, -0.000000000000000000, -0.000000000000000000 ) ) ;
#44 = CC_DESIGN_PERSON_AND_ORGANIZATION_ASSIGNMENT ( #140, #116, ( #201 ) ) ;
#45 = CARTESIAN_POINT ( 'NONE',  ( -0.5000000000000002220, 3.000000000000000000, 0.000000000000000000 ) ) ;
#46 = AXIS2_PLACEMENT_3D ( 'NONE', #2, #53, #161 ) ;
#47 = ORIENTED_EDGE ( 'NONE', *, *, #155, .T. ) ;
#48 = CARTESIAN_POINT ( 'NONE',  ( 1.500000000000000444, 0.000000000000000000, 3.000000000000000000 ) ) ;
#49 = ORIENTED_EDGE ( 'NONE', *, *, #238, .F. ) ;
#50 = CC_DESIGN_DATE_AND_TIME_ASSIGNMENT ( #250, #39, ( #110 ) ) ;
#51 = ORIENTED_EDGE ( 'NONE', *, *, #220, .F. ) ;
#52 = EDGE_LOOP ( 'NONE', ( #137, #306 ) ) ;
#53 = DIRECTION ( 'NONE',  ( -1.000000000000000000, -0.000000000000000000, -0.000000000000000000 ) ) ;
#54 = DIRECTION ( 'NONE',  ( -1.000000000000000000, -0.000000000000000000, -0.000000000000000000 ) ) ;
#55 = APPROVAL ( #164, 'UNSPECIFIED' ) ;
#56 = CALENDAR_DATE ( 2020, 22, 12 ) ;
#57 = CARTESIAN_POINT ( 'NONE',  ( -1.500000000000000000, 0.000000000000000000, 0.000000000000000000 ) ) ;
#58 = AXIS2_PLACEMENT_3D ( 'NONE', #121, #281, #227 ) ;
#59 = APPROVAL_DATE_TIME ( #30, #133 ) ;
#60 = EDGE_CURVE ( 'NONE', #74, #17, #217, .T. ) ;
#61 = CYLINDRICAL_SURFACE ( 'NONE', #81, 5.000000000000000000 ) ;
#62 = COORDINATED_UNIVERSAL_TIME_OFFSET ( 8, 0, .AHEAD. ) ;
#63 = DIRECTION ( 'NONE',  ( 0.000000000000000000, 0.000000000000000000, 1.000000000000000000 ) ) ;
#64 = SECURITY_CLASSIFICATION_LEVEL ( 'unclassified' ) ;
#65 = DIRECTION ( 'NONE',  ( 0.000000000000000000, 0.000000000000000000, 1.000000000000000000 ) ) ;
#66 = CC_DESIGN_APPROVAL ( #123, ( #110 ) ) ;
#67 = EDGE_CURVE ( 'NONE', #204, #333, #176, .T. ) ;
#68 = DIRECTION ( 'NONE',  ( -1.000000000000000000, -0.000000000000000000, -0.000000000000000000 ) ) ;
#69 = ADVANCED_FACE ( 'NONE', ( #188 ), #208, .T. ) ;
#70 = DIRECTION ( 'NONE',  ( 0.000000000000000000, 0.000000000000000000, 1.000000000000000000 ) ) ;
#71 = PLANE ( 'NONE',  #267 ) ;
#72 = ORIENTED_EDGE ( 'NONE', *, *, #187, .F. ) ;
#73 = EDGE_LOOP ( 'NONE', ( #182, #286, #103, #131 ) ) ;
#74 = VERTEX_POINT ( 'NONE', #48 ) ;
#75 = EDGE_CURVE ( 'NONE', #236, #148, #25, .T. ) ;
#76 = VERTEX_POINT ( 'NONE', #256 ) ;
#77 = LINE ( 'NONE', #185, #302 ) ;
#78 = ORIENTED_EDGE ( 'NONE', *, *, #93, .T. ) ;
#79 = DIRECTION ( 'NONE',  ( 0.000000000000000000, 0.000000000000000000, 1.000000000000000000 ) ) ;
#80 = DIRECTION ( 'NONE',  ( 0.000000000000000000, 0.000000000000000000, 1.000000000000000000 ) ) ;
#81 = AXIS2_PLACEMENT_3D ( 'NONE', #223, #82, #296 ) ;
#82 = DIRECTION ( 'NONE',  ( -1.000000000000000000, -0.000000000000000000, -0.000000000000000000 ) ) ;
#83 = CARTESIAN_POINT ( 'NONE',  ( -0.5000000000000002220, 0.000000000000000000, 0.000000000000000000 ) ) ;
#84 = APPROVAL_STATUS ( 'not_yet_approved' ) ;
#85 = DIRECTION ( 'NONE',  ( 1.000000000000000000, 0.000000000000000000, 0.000000000000000000 ) ) ;
#86 = ADVANCED_FACE ( 'NONE', ( #104 ), #71, .F. ) ;
#87 = VECTOR ( 'NONE', #304, 1000.000000000000000 ) ;
#88 = CARTESIAN_POINT ( 'NONE',  ( -1.614212418857619014, 0.000000000000000000, 0.000000000000000000 ) ) ;
#89 =( NAMED_UNIT ( * ) SI_UNIT ( $, .STERADIAN. ) SOLID_ANGLE_UNIT ( ) );
#90 = EDGE_CURVE ( 'NONE', #96, #183, #77, .T. ) ;
#91 = EDGE_CURVE ( 'NONE', #76, #228, #329, .T. ) ;
#92 = ORGANIZATION ( 'UNSPECIFIED', 'UNSPECIFIED', '' ) ;
#93 = EDGE_CURVE ( 'NONE', #333, #204, #162, .T. ) ;
#94 = APPROVAL_ROLE ( '' ) ;
#95 = ADVANCED_FACE ( 'NONE', ( #149 ), #16, .F. ) ;
#96 = VERTEX_POINT ( 'NONE', #266 ) ;
#97 = CARTESIAN_POINT ( 'NONE',  ( 1.500000000000000000, 0.000000000000000000, 0.000000000000000000 ) ) ;
#98 = AXIS2_PLACEMENT_3D ( 'NONE', #97, #179, #285 ) ;
#99 = DIRECTION ( 'NONE',  ( 0.000000000000000000, 0.000000000000000000, 1.000000000000000000 ) ) ;
#100 = CARTESIAN_POINT ( 'NONE',  ( 1.500000000000000000, 6.123233995736766282E-16, -5.000000000000000000 ) ) ;
#101 = LINE ( 'NONE', #315, #87 ) ;
#102 = ORIENTED_EDGE ( 'NONE', *, *, #243, .F. ) ;
#103 = ORIENTED_EDGE ( 'NONE', *, *, #90, .T. ) ;
#104 = FACE_OUTER_BOUND ( 'NONE', #52, .T. ) ;
#105 = APPROVAL_PERSON_ORGANIZATION ( #36, #133, #195 ) ;
#106 = PERSON ( 'UNSPECIFIED', 'UNSPECIFIED', 'UNSPECIFIED', ('UNSPECIFIED'), ('UNSPECIFIED'), ('UNSPECIFIED') ) ;
#107 = ORIENTED_EDGE ( 'NONE', *, *, #192, .T. ) ;
#108 = VERTEX_POINT ( 'NONE', #276 ) ;
#109 = DIRECTION ( 'NONE',  ( -1.000000000000000000, -0.000000000000000000, -0.000000000000000000 ) ) ;
#110 = PRODUCT_DEFINITION ( 'UNKNOWN', '', #201, #33 ) ;
#111 = COORDINATED_UNIVERSAL_TIME_OFFSET ( 8, 0, .AHEAD. ) ;
#112 = DIRECTION ( 'NONE',  ( -1.000000000000000000, -0.000000000000000000, -0.000000000000000000 ) ) ;
#113 = PERSON_AND_ORGANIZATION_ROLE ( 'creator' ) ;
#114 = APPROVAL_DATE_TIME ( #4, #55 ) ;
#115 = LINE ( 'NONE', #268, #330 ) ;
#116 = PERSON_AND_ORGANIZATION_ROLE ( 'creator' ) ;
#117 = FACE_BOUND ( 'NONE', #257, .T. ) ;
#118 = ADVANCED_FACE ( 'NONE', ( #27, #138 ), #215, .F. ) ;
#119 =( LENGTH_UNIT ( ) NAMED_UNIT ( * ) SI_UNIT ( .MILLI., .METRE. ) );
#120 = EDGE_CURVE ( 'NONE', #148, #108, #115, .T. ) ;
#121 = CARTESIAN_POINT ( 'NONE',  ( 0.000000000000000000, 0.000000000000000000, 0.000000000000000000 ) ) ;
#122 = PERSON_AND_ORGANIZATION ( #106, #92 ) ;
#123 = APPROVAL ( #144, 'UNSPECIFIED' ) ;
#124 = DIRECTION ( 'NONE',  ( 0.000000000000000000, 0.000000000000000000, 1.000000000000000000 ) ) ;
#125 = DIRECTION ( 'NONE',  ( -1.000000000000000000, -0.000000000000000000, -0.000000000000000000 ) ) ;
#126 = CIRCLE ( 'NONE', #13, 5.000000000000000000 ) ;
#127 = CIRCLE ( 'NONE', #317, 3.000000000000000000 ) ;
#128 = DIRECTION ( 'NONE',  ( 1.000000000000000000, 0.000000000000000000, 0.000000000000000000 ) ) ;
#129 = ADVANCED_FACE ( 'NONE', ( #294 ), #61, .T. ) ;
#130 = DIRECTION ( 'NONE',  ( 0.000000000000000000, 0.000000000000000000, -1.000000000000000000 ) ) ;
#131 = ORIENTED_EDGE ( 'NONE', *, *, #28, .T. ) ;
#132 = ORIENTED_EDGE ( 'NONE', *, *, #151, .F. ) ;
#133 = APPROVAL ( #84, 'UNSPECIFIED' ) ;
#134 = DIRECTION ( 'NONE',  ( -1.000000000000000000, -0.000000000000000000, -0.000000000000000000 ) ) ;
#135 = PRODUCT_DEFINITION_SHAPE ( 'NONE', 'NONE',  #110 ) ;
#136 = DIRECTION ( 'NONE',  ( -1.000000000000000000, -0.000000000000000000, -0.000000000000000000 ) ) ;
#137 = ORIENTED_EDGE ( 'NONE', *, *, #67, .F. ) ;
#138 = FACE_BOUND ( 'NONE', #239, .T. ) ;
#139 = DIRECTION ( 'NONE',  ( 0.000000000000000000, 0.000000000000000000, -1.000000000000000000 ) ) ;
#140 = PERSON_AND_ORGANIZATION ( #106, #92 ) ;
#141 = DIRECTION ( 'NONE',  ( -1.000000000000000000, -0.000000000000000000, -0.000000000000000000 ) ) ;
#142 = CIRCLE ( 'NONE', #211, 3.000000000000000000 ) ;
#143 = LOCAL_TIME ( 16, 54, 2.000000000000000000, #62 ) ;
#144 = APPROVAL_STATUS ( 'not_yet_approved' ) ;
#145 = DIRECTION ( 'NONE',  ( -1.000000000000000000, -0.000000000000000000, -0.000000000000000000 ) ) ;
#146 = APPLICATION_PROTOCOL_DEFINITION ( 'international standard', 'config_control_design', 1994, #166 ) ;
#147 = AXIS2_PLACEMENT_3D ( 'NONE', #175, #128, #200 ) ;
#148 = VERTEX_POINT ( 'NONE', #272 ) ;
#149 = FACE_OUTER_BOUND ( 'NONE', #265, .T. ) ;
#150 = PRODUCT ( 'Q-DWWP-R41-12.7-1064-SH-M', 'Q-DWWP-R41-12.7-1064-SH-M', '', ( #202 ) ) ;
#151 = EDGE_CURVE ( 'NONE', #232, #108, #231, .T. ) ;
#152 = CYLINDRICAL_SURFACE ( 'NONE', #173, 3.000000000000000000 ) ;
#153 = ORIENTED_EDGE ( 'NONE', *, *, #19, .T. ) ;
#154 = EDGE_LOOP ( 'NONE', ( #102, #314, #78, #49 ) ) ;
#155 = EDGE_CURVE ( 'NONE', #108, #232, #126, .T. ) ;
#156 = CARTESIAN_POINT ( 'NONE',  ( 1.500000000000000000, 0.000000000000000000, 0.000000000000000000 ) ) ;
#157 = ORIENTED_EDGE ( 'NONE', *, *, #75, .T. ) ;
#158 = ADVANCED_FACE ( 'NONE', ( #246 ), #269, .F. ) ;
#159 = EDGE_LOOP ( 'NONE', ( #206, #157, #24, #132 ) ) ;
#160 = ORIENTED_EDGE ( 'NONE', *, *, #192, .F. ) ;
#161 = DIRECTION ( 'NONE',  ( 0.000000000000000000, 0.000000000000000000, 1.000000000000000000 ) ) ;
#162 = CIRCLE ( 'NONE', #46, 3.000000000000000000 ) ;
#163 = DIRECTION ( 'NONE',  ( -1.000000000000000000, -0.000000000000000000, -0.000000000000000000 ) ) ;
#164 = APPROVAL_STATUS ( 'not_yet_approved' ) ;
#165 = DIRECTION ( 'NONE',  ( 0.000000000000000000, 0.000000000000000000, 1.000000000000000000 ) ) ;
#166 = APPLICATION_CONTEXT ( 'configuration controlled 3d designs of mechanical parts and assemblies' ) ;
#167 = AXIS2_PLACEMENT_3D ( 'NONE', #45, #214, #130 ) ;
#168 = PERSON_AND_ORGANIZATION ( #106, #92 ) ;
#169 = AXIS2_PLACEMENT_3D ( 'NONE', #83, #31, #139 ) ;
#170 = DIRECTION ( 'NONE',  ( -1.000000000000000000, -0.000000000000000000, -0.000000000000000000 ) ) ;
#171 = CARTESIAN_POINT ( 'NONE',  ( -1.500000000000000000, 3.673940397442059868E-16, -3.000000000000000000 ) ) ;
#172 = EDGE_CURVE ( 'NONE', #96, #76, #1, .T. ) ;
#173 = AXIS2_PLACEMENT_3D ( 'NONE', #252, #9, #65 ) ;
#174 = PERSON_AND_ORGANIZATION ( #106, #92 ) ;
#175 = CARTESIAN_POINT ( 'NONE',  ( -1.500000000000000000, 3.000000000000000000, 0.000000000000000000 ) ) ;
#176 = CIRCLE ( 'NONE', #282, 3.000000000000000000 ) ;
#177 = VECTOR ( 'NONE', #141, 1000.000000000000000 ) ;
#178 = PLANE ( 'NONE',  #167 ) ;
#179 = DIRECTION ( 'NONE',  ( -1.000000000000000000, -0.000000000000000000, -0.000000000000000000 ) ) ;
#180 = ADVANCED_FACE ( 'NONE', ( #249 ), #34, .F. ) ;
#181 = ORIENTED_EDGE ( 'NONE', *, *, #60, .T. ) ;
#182 = ORIENTED_EDGE ( 'NONE', *, *, #91, .F. ) ;
#183 = VERTEX_POINT ( 'NONE', #319 ) ;
#184 = ADVANCED_BREP_SHAPE_REPRESENTATION ( 'Q-DWWP-R41-12.7-1064-SH-M', ( #309, #58 ), #295 ) ;
#185 = CARTESIAN_POINT ( 'NONE',  ( -1.614212418857619014, 0.000000000000000000, 3.000000000000000000 ) ) ;
#186 = ORIENTED_EDGE ( 'NONE', *, *, #243, .T. ) ;
#187 = EDGE_CURVE ( 'NONE', #17, #333, #194, .T. ) ;
#188 = FACE_OUTER_BOUND ( 'NONE', #159, .T. ) ;
#189 = DIRECTION ( 'NONE',  ( -1.000000000000000000, -0.000000000000000000, -0.000000000000000000 ) ) ;
#190 = AXIS2_PLACEMENT_3D ( 'NONE', #198, #170, #63 ) ;
#191 = SECURITY_CLASSIFICATION ( '', '', #64 ) ;
#192 = EDGE_CURVE ( 'NONE', #228, #183, #242, .T. ) ;
#193 = PERSON_AND_ORGANIZATION_ROLE ( 'design_supplier' ) ;
#194 = LINE ( 'NONE', #298, #177 ) ;
#195 = APPROVAL_ROLE ( '' ) ;
#196 = CARTESIAN_POINT ( 'NONE',  ( -1.614212418857619014, 0.000000000000000000, 0.000000000000000000 ) ) ;
#197 = APPROVAL_PERSON_ORGANIZATION ( #168, #55, #270 ) ;
#198 = CARTESIAN_POINT ( 'NONE',  ( -1.614212418857619014, 0.000000000000000000, 0.000000000000000000 ) ) ;
#199 = CALENDAR_DATE ( 2020, 22, 12 ) ;
#200 = DIRECTION ( 'NONE',  ( 0.000000000000000000, 0.000000000000000000, -1.000000000000000000 ) ) ;
#201 = PRODUCT_DEFINITION_FORMATION_WITH_SPECIFIED_SOURCE ( 'ANY', '', #150, .NOT_KNOWN. ) ;
#202 = MECHANICAL_CONTEXT ( 'NONE', #261, 'mechanical' ) ;
#203 = COORDINATED_UNIVERSAL_TIME_OFFSET ( 8, 0, .AHEAD. ) ;
#204 = VERTEX_POINT ( 'NONE', #222 ) ;
#205 = PRODUCT_RELATED_PRODUCT_CATEGORY ( 'detail', '', ( #150 ) ) ;
#206 = ORIENTED_EDGE ( 'NONE', *, *, #35, .F. ) ;
#207 = PLANE ( 'NONE',  #147 ) ;
#208 = CYLINDRICAL_SURFACE ( 'NONE', #247, 5.000000000000000000 ) ;
#209 = EDGE_LOOP ( 'NONE', ( #72, #331, #41, #335 ) ) ;
#210 = CARTESIAN_POINT ( 'NONE',  ( 0.5000000000000002220, 3.000000000000000000, 0.000000000000000000 ) ) ;
#211 = AXIS2_PLACEMENT_3D ( 'NONE', #23, #134, #124 ) ;
#212 = CC_DESIGN_PERSON_AND_ORGANIZATION_ASSIGNMENT ( #248, #193, ( #201 ) ) ;
#213 = EDGE_LOOP ( 'NONE', ( #47, #15 ) ) ;
#214 = DIRECTION ( 'NONE',  ( 1.000000000000000000, 0.000000000000000000, 0.000000000000000000 ) ) ;
#215 = PLANE ( 'NONE',  #293 ) ;
#216 = CARTESIAN_POINT ( 'NONE',  ( 1.500000000000000222, 5.000000000000000000, 0.000000000000000000 ) ) ;
#217 = CIRCLE ( 'NONE', #241, 3.000000000000000000 ) ;
#218 = VECTOR ( 'NONE', #145, 1000.000000000000000 ) ;
#219 = DIRECTION ( 'NONE',  ( 0.000000000000000000, 0.000000000000000000, 1.000000000000000000 ) ) ;
#220 = EDGE_CURVE ( 'NONE', #76, #96, #127, .T. ) ;
#221 = CALENDAR_DATE ( 2020, 22, 12 ) ;
#222 = CARTESIAN_POINT ( 'NONE',  ( 0.5000000000000004441, 0.000000000000000000, 3.000000000000000000 ) ) ;
#223 = CARTESIAN_POINT ( 'NONE',  ( -1.614212418857619014, 0.000000000000000000, 0.000000000000000000 ) ) ;
#224 = AXIS2_PLACEMENT_3D ( 'NONE', #156, #43, #99 ) ;
#225 = LOCAL_TIME ( 16, 54, 2.000000000000000000, #111 ) ;
#226 = FACE_OUTER_BOUND ( 'NONE', #213, .T. ) ;
#227 = DIRECTION ( 'NONE',  ( 1.000000000000000000, 0.000000000000000000, 0.000000000000000000 ) ) ;
#228 = VERTEX_POINT ( 'NONE', #171 ) ;
#229 = CARTESIAN_POINT ( 'NONE',  ( 1.500000000000000444, 0.000000000000000000, 0.000000000000000000 ) ) ;
#230 = CC_DESIGN_PERSON_AND_ORGANIZATION_ASSIGNMENT ( #174, #40, ( #150 ) ) ;
#231 = CIRCLE ( 'NONE', #279, 5.000000000000000000 ) ;
#232 = VERTEX_POINT ( 'NONE', #11 ) ;
#233 = APPROVAL_DATE_TIME ( #18, #123 ) ;
#234 = DIRECTION ( 'NONE',  ( -1.000000000000000000, -0.000000000000000000, -0.000000000000000000 ) ) ;
#235 = ORIENTED_EDGE ( 'NONE', *, *, #172, .F. ) ;
#236 = VERTEX_POINT ( 'NONE', #100 ) ;
#237 = CARTESIAN_POINT ( 'NONE',  ( -1.614212418857619014, 0.000000000000000000, 0.000000000000000000 ) ) ;
#238 = EDGE_CURVE ( 'NONE', #74, #204, #12, .T. ) ;
#239 = EDGE_LOOP ( 'NONE', ( #181, #186 ) ) ;
#240 = DIRECTION ( 'NONE',  ( -1.000000000000000000, -0.000000000000000000, -0.000000000000000000 ) ) ;
#241 = AXIS2_PLACEMENT_3D ( 'NONE', #229, #125, #70 ) ;
#242 = CIRCLE ( 'NONE', #288, 3.000000000000000000 ) ;
#243 = EDGE_CURVE ( 'NONE', #17, #74, #323, .T. ) ;
#244 = DIRECTION ( 'NONE',  ( 0.000000000000000000, 0.000000000000000000, 1.000000000000000000 ) ) ;
#245 = CALENDAR_DATE ( 2020, 22, 12 ) ;
#246 = FACE_OUTER_BOUND ( 'NONE', #209, .T. ) ;
#247 = AXIS2_PLACEMENT_3D ( 'NONE', #237, #289, #334 ) ;
#248 = PERSON_AND_ORGANIZATION ( #106, #92 ) ;
#249 = FACE_OUTER_BOUND ( 'NONE', #73, .T. ) ;
#250 = DATE_AND_TIME ( #56, #5 ) ;
#251 = FACE_OUTER_BOUND ( 'NONE', #154, .T. ) ;
#252 = CARTESIAN_POINT ( 'NONE',  ( -1.614212418857619014, 0.000000000000000000, 0.000000000000000000 ) ) ;
#253 =( NAMED_UNIT ( * ) PLANE_ANGLE_UNIT ( ) SI_UNIT ( $, .RADIAN. ) );
#254 = LOCAL_TIME ( 16, 54, 2.000000000000000000, #203 ) ;
#255 = EDGE_LOOP ( 'NONE', ( #153, #263, #311, #290 ) ) ;
#256 = CARTESIAN_POINT ( 'NONE',  ( -0.5000000000000002220, 3.673940397442059868E-16, -3.000000000000000000 ) ) ;
#257 = EDGE_LOOP ( 'NONE', ( #20, #160 ) ) ;
#258 = CALENDAR_DATE ( 2020, 22, 12 ) ;
#259 = LOCAL_TIME ( 16, 54, 2.000000000000000000, #299 ) ;
#260 = DIRECTION ( 'NONE',  ( -1.000000000000000000, 0.000000000000000000, -0.000000000000000000 ) ) ;
#261 = APPLICATION_CONTEXT ( 'configuration controlled 3d designs of mechanical parts and assemblies' ) ;
#262 = ORIENTED_EDGE ( 'NONE', *, *, #75, .F. ) ;
#263 = ORIENTED_EDGE ( 'NONE', *, *, #35, .T. ) ;
#264 = CARTESIAN_POINT ( 'NONE',  ( 1.500000000000000444, 3.673940397442059868E-16, -3.000000000000000000 ) ) ;
#265 = EDGE_LOOP ( 'NONE', ( #291, #303, #107, #308 ) ) ;
#266 = CARTESIAN_POINT ( 'NONE',  ( -0.5000000000000002220, 0.000000000000000000, 3.000000000000000000 ) ) ;
#267 = AXIS2_PLACEMENT_3D ( 'NONE', #210, #260, #313 ) ;
#268 = CARTESIAN_POINT ( 'NONE',  ( -1.614212418857619014, 0.000000000000000000, 5.000000000000000000 ) ) ;
#269 = CYLINDRICAL_SURFACE ( 'NONE', #271, 3.000000000000000000 ) ;
#270 = APPROVAL_ROLE ( '' ) ;
#271 = AXIS2_PLACEMENT_3D ( 'NONE', #196, #189, #219 ) ;
#272 = CARTESIAN_POINT ( 'NONE',  ( 1.500000000000000000, 0.000000000000000000, 5.000000000000000000 ) ) ;
#273 = AXIS2_PLACEMENT_3D ( 'NONE', #88, #54, #244 ) ;
#274 = SHAPE_DEFINITION_REPRESENTATION ( #135, #184 ) ;
#275 = ADVANCED_FACE ( 'NONE', ( #117, #226 ), #207, .F. ) ;
#276 = CARTESIAN_POINT ( 'NONE',  ( -1.500000000000000000, 0.000000000000000000, 5.000000000000000000 ) ) ;
#277 = PERSON_AND_ORGANIZATION ( #106, #92 ) ;
#278 = CARTESIAN_POINT ( 'NONE',  ( -1.614212418857619014, 0.000000000000000000, 3.000000000000000000 ) ) ;
#279 = AXIS2_PLACEMENT_3D ( 'NONE', #316, #112, #80 ) ;
#280 = CC_DESIGN_APPROVAL ( #55, ( #201 ) ) ;
#281 = DIRECTION ( 'NONE',  ( 0.000000000000000000, 0.000000000000000000, 1.000000000000000000 ) ) ;
#282 = AXIS2_PLACEMENT_3D ( 'NONE', #284, #234, #79 ) ;
#283 = CC_DESIGN_SECURITY_CLASSIFICATION ( #191, ( #201 ) ) ;
#284 = CARTESIAN_POINT ( 'NONE',  ( 0.5000000000000004441, 0.000000000000000000, 0.000000000000000000 ) ) ;
#285 = DIRECTION ( 'NONE',  ( 0.000000000000000000, 0.000000000000000000, 1.000000000000000000 ) ) ;
#286 = ORIENTED_EDGE ( 'NONE', *, *, #220, .T. ) ;
#287 = VECTOR ( 'NONE', #240, 1000.000000000000000 ) ;
#288 = AXIS2_PLACEMENT_3D ( 'NONE', #57, #7, #165 ) ;
#289 = DIRECTION ( 'NONE',  ( -1.000000000000000000, -0.000000000000000000, -0.000000000000000000 ) ) ;
#290 = ORIENTED_EDGE ( 'NONE', *, *, #120, .F. ) ;
#291 = ORIENTED_EDGE ( 'NONE', *, *, #172, .T. ) ;
#292 = CARTESIAN_POINT ( 'NONE',  ( -1.614212418857619014, 3.673940397442059868E-16, -3.000000000000000000 ) ) ;
#293 = AXIS2_PLACEMENT_3D ( 'NONE', #216, #8, #3 ) ;
#294 = FACE_OUTER_BOUND ( 'NONE', #255, .T. ) ;
#295 =( GEOMETRIC_REPRESENTATION_CONTEXT ( 3 ) GLOBAL_UNCERTAINTY_ASSIGNED_CONTEXT ( ( #297 ) ) GLOBAL_UNIT_ASSIGNED_CONTEXT ( ( #119, #253, #89 ) ) REPRESENTATION_CONTEXT ( 'NONE', 'WORKASPACE' ) );
#296 = DIRECTION ( 'NONE',  ( 0.000000000000000000, 0.000000000000000000, 1.000000000000000000 ) ) ;
#297 = UNCERTAINTY_MEASURE_WITH_UNIT (LENGTH_MEASURE( 1.000000000000000082E-05 ), #119, 'distance_accuracy_value', 'NONE');
#298 = CARTESIAN_POINT ( 'NONE',  ( -1.614212418857619014, 3.673940397442059868E-16, -3.000000000000000000 ) ) ;
#299 = COORDINATED_UNIVERSAL_TIME_OFFSET ( 8, 0, .AHEAD. ) ;
#300 = DIRECTION ( 'NONE',  ( 0.000000000000000000, 0.000000000000000000, -1.000000000000000000 ) ) ;
#301 = PERSON_AND_ORGANIZATION_ROLE ( 'classification_officer' ) ;
#302 = VECTOR ( 'NONE', #136, 1000.000000000000000 ) ;
#303 = ORIENTED_EDGE ( 'NONE', *, *, #91, .T. ) ;
#304 = DIRECTION ( 'NONE',  ( -1.000000000000000000, -0.000000000000000000, -0.000000000000000000 ) ) ;
#305 = ADVANCED_FACE ( 'NONE', ( #251 ), #152, .F. ) ;
#306 = ORIENTED_EDGE ( 'NONE', *, *, #93, .F. ) ;
#307 = FACE_OUTER_BOUND ( 'NONE', #21, .T. ) ;
#308 = ORIENTED_EDGE ( 'NONE', *, *, #90, .F. ) ;
#309 = MANIFOLD_SOLID_BREP ( 'Ðý×', #42 ) ;
#310 = CC_DESIGN_APPROVAL ( #133, ( #191 ) ) ;
#311 = ORIENTED_EDGE ( 'NONE', *, *, #155, .F. ) ;
#312 = APPROVAL_PERSON_ORGANIZATION ( #122, #123, #94 ) ;
#313 = DIRECTION ( 'NONE',  ( -0.000000000000000000, 0.000000000000000000, 1.000000000000000000 ) ) ;
#314 = ORIENTED_EDGE ( 'NONE', *, *, #187, .T. ) ;
#315 = CARTESIAN_POINT ( 'NONE',  ( -1.614212418857619014, 6.123233995736766282E-16, -5.000000000000000000 ) ) ;
#316 = CARTESIAN_POINT ( 'NONE',  ( -1.500000000000000000, 0.000000000000000000, 0.000000000000000000 ) ) ;
#317 = AXIS2_PLACEMENT_3D ( 'NONE', #321, #85, #300 ) ;
#318 = PERSON_AND_ORGANIZATION ( #106, #92 ) ;
#319 = CARTESIAN_POINT ( 'NONE',  ( -1.500000000000000000, 0.000000000000000000, 3.000000000000000000 ) ) ;
#320 = DATE_TIME_ROLE ( 'classification_date' ) ;
#321 = CARTESIAN_POINT ( 'NONE',  ( -0.5000000000000002220, 0.000000000000000000, 0.000000000000000000 ) ) ;
#322 = CARTESIAN_POINT ( 'NONE',  ( -1.500000000000000000, 0.000000000000000000, 0.000000000000000000 ) ) ;
#323 = CIRCLE ( 'NONE', #26, 3.000000000000000000 ) ;
#324 = CARTESIAN_POINT ( 'NONE',  ( 0.5000000000000004441, 3.673940397442059868E-16, -3.000000000000000000 ) ) ;
#325 = CC_DESIGN_PERSON_AND_ORGANIZATION_ASSIGNMENT ( #318, #301, ( #191 ) ) ;
#326 = CARTESIAN_POINT ( 'NONE',  ( 1.500000000000000444, 0.000000000000000000, 0.000000000000000000 ) ) ;
#327 = APPLICATION_PROTOCOL_DEFINITION ( 'international standard', 'config_control_design', 1994, #261 ) ;
#328 = EDGE_LOOP ( 'NONE', ( #22, #262 ) ) ;
#329 = LINE ( 'NONE', #292, #287 ) ;
#330 = VECTOR ( 'NONE', #109, 1000.000000000000000 ) ;
#331 = ORIENTED_EDGE ( 'NONE', *, *, #60, .F. ) ;
#332 = CC_DESIGN_DATE_AND_TIME_ASSIGNMENT ( #6, #320, ( #191 ) ) ;
#333 = VERTEX_POINT ( 'NONE', #324 ) ;
#334 = DIRECTION ( 'NONE',  ( 0.000000000000000000, 0.000000000000000000, 1.000000000000000000 ) ) ;
#335 = ORIENTED_EDGE ( 'NONE', *, *, #67, .T. ) ;
ENDSEC;
END-ISO-10303-21;
